Time For Me To Fly Bass TabThis is a featured page

Jonas Brothers Bass Tabs - Time For Me To Fly

See Also: Time For Me To Fly Chords | Time For Me To Fly | Jonas Brothers Guitar Tabs

Intro
G|-------------------------------------------------------------------------|
D|-------------------------------------------------------------------------|
A|----------55-5-5555-77-7-7777-33-3-3333----------------------------------|
E|33-3-33333---------------------------------------------------------------|
Verse 1
G|-------------------------------------------------------------------------|
D|-------------------------------------------------------------------------|
A|-----55-5-77-7-3333-55-5x2-----------------------------------------------|
E|33-3---------------------------------------------------------------------|
Second Ending (verses)
G|-------------------------------------------------------------------------|
D|-------------------------------------------------------------------------|
A|335577-------------------------------------------------------------------|
E|------3<-let it ring!----------------------------------------------------|
Chorus (start playing when Nick says "fly")
G|-------------------------------------------------------------------------|
D|-------------------------------------------------------------------------|
A|--------555555557777777733333333x2---------------------------------------|
E|33333333-----------------------------------------------------------------|
Second Ending (chorus)
G|-------------------------------------------------------------------------|
D|-------------------------------------------------------------------------|
A|-------------------------------------------------------------------------|
E|3<-Let it ring!----------------------------------------------------------|
Verse 2
G|-------------------------------------------------------------------------|
D|-------------------------------------------------------------------------|
A|--------555555557777777733333333x2---------------------------------------|
E|33333333-----------------------------------------------------------------|
Second Ending (verses) same as before
Bridge
G|-------------------------------------------------------------------------|
D|-------------------------------------------------------------------------|
A|33333333555555557777555533333333x2---------------------------------------|
E|-------------------------------------------------------------------------|
Second Ending (bridge)
G|-------------------------------------------------------------------------|
D|-------------------------------------------------------------------------|
A|-------------------------------------------------------------------------|
E|3<-Let it ring!-wait for Joe to count.."1,2,3,4" 33333333----------------|

Chorus x3


| / slide up
| \ slide down
| h hammer-on
| p pull-off
| ~ vibrato
| + harmonic
| x Mute note


J-Me
J-Me
Latest page update: made by J-Me , May 21 2008, 2:29 PM EDT (about this update About This Update J-Me Edited by J-Me

29 words added

view changes

- complete history)
More Info: links to this page

Anonymous  (Get credit for your thread)


There are no threads for this page.  Be the first to start a new thread.

Related Content

  (what's this?Related ContentThanks to keyword tags, links to related pages and threads are added to the bottom of your pages. Up to 15 links are shown, determined by matching tags and by how recently the content was updated; keeping the most current at the top. Share your feedback on WikiFoundry Central.)