Take A Breath Bass TabThis is a featured page

Jonas Brothers Bass Tabs - Take A Breath

See Also: Take A Breath Tab | Take A Breath Chords | Jonas Brothers Guitar Tabs


Tuning: standard

Verse "your upset face..."
G|---------------------------------------------------|
D|---------------------------------------------------|
A|----------------------------------555555555555555--|
E|5555555555555555-1111111111111111------------------|

Pre-Chorus "We've all been down that road..."
G|------------------------------------------------|
D|------------------------------------------------|
A|---------------------------------11111111111111-|
E|3333333333333333-111111111111111----------------|

Chorus "Worlds are spinning..."
G|------------------------------------------------------------------------|
D|-----------------------------------------------------22-3333333333333333|
A|3333333333333333------------------------2222-3333-55--------------------|
E|-----------------33333333-44444444-5555---------------------------------|x2

Verse x2
Pre-Chorus x1
Chorus x2

Bridge "Life isn't suffocating..."
G|--------------------------------|
D|--------------------------------|
A|---------3~----------------1~---|
E|5~---1~--------5~----1~---------|

rest until 2:17

Chorus x1

outro choruses
G|-----------------------------------------------------------------------|
D|-----------------------------------------------------22-333333333333333|
A|3333333333333-3h5------------------------2222-3333-55------------------|
E|------------------33333333-44444444-5555-------------------------------|

G|----------------------------------------------------------------------------|
D|------------------------------------------------------22-33333333333333333h5|
A|33333333333333-3h5------------------------2222-3333-55----------------------|
E|-------------------33333333-44444444-5555-----------------------------------|

G|---------------------------------------------------------------------------|
D|-----------------------------------------------------22-33333355-6666-8888-|
A|333333333333333h5------------------------2222-3333-55----------------------|
E|------------------33333333-44444444-5555-----------------------------------|x2


J-Me
J-Me
Latest page update: made by J-Me , May 21 2008, 2:25 PM EDT (about this update About This Update J-Me Edited by J-Me

19 words added
1 word deleted

view changes

- complete history)
More Info: links to this page

Anonymous  (Get credit for your thread)


There are no threads for this page.  Be the first to start a new thread.

Related Content

  (what's this?Related ContentThanks to keyword tags, links to related pages and threads are added to the bottom of your pages. Up to 15 links are shown, determined by matching tags and by how recently the content was updated; keeping the most current at the top. Share your feedback on WikiFoundry Central.)