Still In Love With You TabThis is a featured page

Jonas Brothers Guitar Tabs - Still in Love With You

See Also: Still In Love With You Chords | Still In Love With You | Jonas Brothers Guitar Tabs


Intro/Verse
e|---------------------------------------------------------------------------|
B|---------------------------------------------------------------------------|
G|--9-9-9-9-9-----------9-9-9-9-9-7-7-7-7-7-----------------5-5-5-5-5-5-5-5--|
D|--x-x-x-x-x-7-7-7-7-7-x-x-x-x-x-x-x-x-x-x-7-7-7-7-7-7-7-7-x-x-x-x-x-x-x-x--|
A|--7-7-7-7-7-x-x-x-x-x-7-7-7-7-7-5-5-5-5-5-x-x-x-x-x-x-x-x-3-3-3-3-3-3-3-3--|
E|------------5-5-5-5-5---------------------5-5-5-5-5-5-5-5------------------|

e|---------------------------------------------------------xxxxxx------------|
B|---------------------------------------------------------xxxxxx------------|
G|-----------------------------------------------------7~--xxxxxx------------|
D|--6-6-6-6-6-7-7-7-7-7-6-6-6-6-6-7-7-7-7-7-6-6-6-6-6--7~--xxxxxx------------|
A|--x-x-x-x-x-x-x-x-x-x-x-x-x-x-x-x-x-x-x-x-x-x-x-x-x--5~--xxxxxx------------|
E|--4-4-4-4-4-5-5-5-5-5-4-4-4-4-4-5-5-5-5-5-4-4-4-4-4------xxxxxx------------|

Chorus

e|---------------------------------------------------------------------------|
B|---------------------------------------------------------------------------|
G|--------99999--------------------99999--------------------99999------------|
D|--77777-99999-99999999-8-7-77777-99999-99999999-8-7-77777-99999-99999999---|
A|--77777-77777-99999999-8-7-77777-77777-99999999-8-7-77777-77777-99999999---|
E|--55555-------77777777-6-5-55555-------77777777-6-5-55555-------77777777---|

e|---------------------------------------------------------------------------|
B|---------------------------------------------------------------------------|
G|-------------------------55555555------------------------------------------|
D|-8-7-44444444-6-77777777-55555555------------------------------------------|
A|-8-7-44444444-6-77777777-33333333------------------------------------------|
E|-6-5-22222222-4-55555555---------------------------------------------------|

Intro/Verse

e|---------------------------------------------------------------------------|
B|---------------------------------------------------------------------------|
G|--9-9-9-9-9-----------9-9-9-9-9-7-7-7-7-7-----------------5-5-5-5-5-5-5-5--|
D|--x-x-x-x-x-7-7-7-7-7-x-x-x-x-x-x-x-x-x-x-7-7-7-7-7-7-7-7-x-x-x-x-x-x-x-x--|
A|--7-7-7-7-7-x-x-x-x-x-7-7-7-7-7-5-5-5-5-5-x-x-x-x-x-x-x-x-3-3-3-3-3-3-3-3--|
E|------------5-5-5-5-5---------------------5-5-5-5-5-5-5-5------------------|

e|---------------------------------------------------------xxxxxx------------|
B|---------------------------------------------------------xxxxxx------------|
G|-----------------------------------------------------7~--xxxxxx------------|
D|--6-6-6-6-6-7-7-7-7-7-6-6-6-6-6-7-7-7-7-7-6-6-6-6-6--7~--xxxxxx------------|
A|--x-x-x-x-x-x-x-x-x-x-x-x-x-x-x-x-x-x-x-x-x-x-x-x-x--5~--xxxxxx------------|
E|--4-4-4-4-4-5-5-5-5-5-4-4-4-4-4-5-5-5-5-5-4-4-4-4-4------xxxxxx------------|

Chorus

e|---------------------------------------------------------------------------|
B|---------------------------------------------------------------------------|
G|--------99999--------------------99999--------------------99999------------|
D|--77777-99999-99999999-8-7-77777-99999-99999999-8-7-77777-99999-99999999---|
A|--77777-77777-99999999-8-7-77777-77777-99999999-8-7-77777-77777-99999999---|
E|--55555-------77777777-6-5-55555-------77777777-6-5-55555-------77777777---|

e|---------------------------------------------------------------------------|
B|---------------------------------------------------------------------------|
G|-------------------------55555555------------------------------------------|
D|-8-4444444444-6-77777777-55555555------------------------------------------|
A|-8-4444444444-6-77777777-33333333------------------------------------------|
E|-6-2222222222-4-55555555---------------------------------------------------|

Interlude
(over Solo) (x2)
|----------------------------------------------------------------------------|
B|---------------------------------------------------------------------------|
G|---------------------------------------------------------------------------|
D|-11--11--1111--9-9-9999-7-7-77-9999999--------x2---------------------------|
A|-11--11--1111--9-9-9999-7-7-77-9999999-------------------------------------|
E|--9---9---9-9--7-7-7777-5-5-55-7777777-------------------------------------|

Verse
e|---------------------------------------------------------------------------|
B|---------------------------------------------------------------------------|
G|---------------------------------------------------------------------------|
D|-----------------just drums and bass - no guitar this time-----------------|
A|---------------------------------------------------------------------------|
E|---------------------------------------------------------------------------|

Post-verse

e|---------------------xxxxxx------------------------------------------------|
B|---------------------xxxxxx------------------------------------------------|
G|-----------55555555--xxxxxx------------------------------------------------|
D|--77777777-55555555--xxxxxx------------------------------------------------|
A|--77777777-33333333--xxxxxx------------------------------------------------|
E|--55555555-----------xxxxxx------------------------------------------------|

Chorus
(x2!!)
e|------------------------------------------------------------------------|
B|------------------------------------------------------------------------|
G|-------99999--------------------99999--------------------99999----------|
D|-77777-99999-99999999-8-7-77777-99999-99999999-8-7-77777-99999-99999999-|
A|-77777-77777-99999999-8-7-77777-77777-99999999-8-7-77777-77777-99999999-|
E|-55555-------77777777-6-5-55555-------77777777-6-5-55555-------77777777-|\ x2 e|------------------------------------------------------------------------|/ B|------------------------------------------------------------------------| G|-------------------------55555555---------------------------------------| D|-8-4444444444-6-77777777-55555555---------------------------------------| A|-8-4444444444-6-77777777-33333333---------------------------------------| E|-6-2222222222-4-55555555------------------------------------------------|



J-Me
J-Me
Latest page update: made by J-Me , May 21 2008, 2:20 PM EDT (about this update About This Update J-Me Edited by J-Me

22 words added
1 word deleted

view changes

- complete history)
More Info: links to this page

Anonymous  (Get credit for your thread)


There are no threads for this page.  Be the first to start a new thread.

Related Content

  (what's this?Related ContentThanks to keyword tags, links to related pages and threads are added to the bottom of your pages. Up to 15 links are shown, determined by matching tags and by how recently the content was updated; keeping the most current at the top. Share your feedback on WikiFoundry Central.)