Pushing Me Away TabThis is a featured page

Jonas Brothers Guitar Tabs - Pushing Me Away

See Also: Pushing Me Away Chords | Jonas Brothers Guitar Tabs

pretty much this entire riff all tru out the song.
e|-----------------------------------------------------------------------------|
B|-----------------------------------------------------------------------------|
G|------2------------------5---------------------------------------------------|
D|------3------------------5------------------5--------------------------------|
A|------3------------------3------------------5--------------------------------|
E|------1-------------------------------------3--------------------------------|
run... run like you do.... i'm chasing you.... i'm on your trail...

e|-----------------------------------------------------------------------------|
B|-----------------------------------------------------------------------------|
G|------7----------------------------------------------------------------------|
D|------7--------------------7-------------------------------------------------|
A|------5--------------------7-------------------------------------------------|
E|---------------------------5-------------------------------------------------|
i'm gaining faster... your going no where.... and so on for the verses and choruses,
etc.



J-Me
J-Me
Latest page update: made by J-Me , May 21 2008, 2:15 PM EDT (about this update About This Update J-Me Edited by J-Me

14 words added
1 word deleted

view changes

- complete history)
More Info: links to this page

Anonymous  (Get credit for your thread)


There are no threads for this page.  Be the first to start a new thread.

Related Content

  (what's this?Related ContentThanks to keyword tags, links to related pages and threads are added to the bottom of your pages. Up to 15 links are shown, determined by matching tags and by how recently the content was updated; keeping the most current at the top. Share your feedback on WikiFoundry Central.)