Please Be Mine TabThis is a featured page

Jonas Brothers Guitar Tabs - Please Be Mine

See Also: Please Be Mine Chords | Please Be Mine | Jonas Brothers Guitar Tabs


Note:If the all the strings are "x" then do a chop
Figure out struming pattern I

ntro
(play 2x)
Verse
(play 4x)
e|----3--x--3-------3--x--0-h3----------3--x--3------3--x----h3------------|
B|----1--x--1-------3--x--3--0----------1--x--1------3--x--3--0------------|
G|----2--x--0-------0--x--0--0----------2--x--0------0--x--0--0------------|
D|----2--x--2-------2--x--0--0----------2--x--2------2--x--0--0------------|
A|----0--x--3-------2--x--2--2----------0--x--3------2--x--2--2------------|
E|----0--x--0-------0--x--3--3----------0--x--0------0--x--3--3------------|

Chorus

e|---3-----1-----3-----0--h3----------3-----1----3----0---h3---------------|
B|---1-----1-----1-----3---0----------1-----1----1----3----0---------------|
G|---2-----2-----0-----0---0----------2-----2----0----0----0---------------|
D|---2-----3-----2-----0---0----------2-----3----2----0----0---------------|
A|---0-----3-----3-----2---2----------0-----3----3----2----2---------------|
E|---0-----1-----0-----3---3----------0-----1----0----3----3---------------|

Verse
Chorus

Bridge
-is the same chords as the chorus
before you sing play chords 1x
then play 2x more

Chorus



J-Me
J-Me
Latest page update: made by J-Me , May 21 2008, 2:14 PM EDT (about this update About This Update J-Me Edited by J-Me

18 words added
1 word deleted

view changes

- complete history)
More Info: links to this page

Anonymous  (Get credit for your thread)


There are no threads for this page.  Be the first to start a new thread.

Related Content

  (what's this?Related ContentThanks to keyword tags, links to related pages and threads are added to the bottom of your pages. Up to 15 links are shown, determined by matching tags and by how recently the content was updated; keeping the most current at the top. Share your feedback on WikiFoundry Central.)