One Day At A Time Bass TabThis is a featured page

Jonas Brothers Bass Tabs - One Day At A Time

See Also: One Day At A Time Tab | One Day At A Time Chords | One Day At A Time | Jonas Brothers Guitar Tabs
| / slide up
| \ slide down
| h hammer-on
| p pull-off
| ~ vibrato
| + harmonic
| x Mute note


* means let it ring
Bass doesn't come in until the verse.

Verses
Wedsnday I came home from school.....
G|-------------------------------------------------------------------------|
D|-------------------------------------------------------------------------|
A|-5-5-555*----------------------------------------------------------------|
E|---------5-5-555*-7-7-777*-3-3-333*x2------------------------------------|

Pre-Chorus Everything I do, brings me back to you.....
G|-------------------------------------------------------------------------|
D|-------------------------------------------------------------------------|
A|-------------------------------------------------------------------------|
E|-7-7-777*-5-5-555*-3-3-3335*---------------------------------------------|

Chorus
And I die, one day at a time.....
G|-------------------------------------------------------------------------|
D|-------------------------------------------------------------------------|
A|-5-5-555*----------------------------------------------------------------|
E|---------5-5-555*-7-7-777*-3-3-333*x2--5-5-555*-5-5-555*-----------------|

Second Verse, same as the first
Pre-Chorus, same as before C
horus, same as before

Bridge
I miss you more than I did a minute ago.....
G|-------------------------------------------------------------------------|
D|-------------------------------------------------------------------------|
A|4444444455555555000000004444224455555555000000000000000077777*-----------|
E|-------------------------------------------------------------------------|

Chorus
And I die, one day at a time.....
G|-------------------------------------------------------------------------|
D|-------------------------------------------------------------------------|
A|-------------------------------------------------------------------------|
E|00000000777777779999777755555577x4--the song ends on-0*------------------|




J-Me
J-Me
Latest page update: made by J-Me , May 21 2008, 2:12 PM EDT (about this update About This Update J-Me Edited by J-Me

33 words added
3 words deleted

view changes

- complete history)
More Info: links to this page

Anonymous  (Get credit for your thread)


There are no threads for this page.  Be the first to start a new thread.

Related Content

  (what's this?Related ContentThanks to keyword tags, links to related pages and threads are added to the bottom of your pages. Up to 15 links are shown, determined by matching tags and by how recently the content was updated; keeping the most current at the top. Share your feedback on WikiFoundry Central.)