Mandy TabThis is a featured page

Jonas Brothers Guitar Tabs - Mandy

See Also: Mandy Chords | Mandy | Jonas Brothers Guitar Tabs


e|-------- ---------------------------------------|
B|-------- ---------------------------------------|
G|-------- ------66------88---88-1010--13-13--8---|
D|-666-----(let --66--66--66--88---88-1010--13-13--8---|
A|-666----- ring)--66--44--66--66---66--88---11-11--6---|
E|-444----- --44------44---------------------------|

verse1:
"Mandy used to be"...
e|---------------------------------------------------------|
B|---------------------------------------------------------|
G|----66----88----66---1010-88-------1010-88-6-8-10-12-13--|
D|-66-66-66-88-66-66-6-1010-88-66-66-1010-88-6-8-10-12-13--|
A|-66-44-66-66-66-44-6--88--66-66-66--88--66-4-6--8-10-11--|
E|-44----44----44----4---------44-44-----------------------|

chorus:
"Mandy always laughs"...
e|-----------------------------| |--------------|--11-11-11-11-13-11|
B|-----------------------------| |--------------|-------------------|
G|-------88-88-1111-1111-66-66-| |-88-1010-1313-|-------------------|
D|-66-66-88-88-1111-1111-66-66-|2x |-88-1010-1313-|2x-----------------|
A|-66-66-66-66--99---99--44-44-| |-66--88--1111-|-------------------|
E|-44-44-----------------------| |--------------|-------------------|

verse 2: "Mandy always"...
e|-------------------------------------------------------------|
B|-------------------------------------------------------------|
G|----66----88----66----88-1010-88-------1010-88-6-8-10-12-13--|
D|-66-66-66-88-66-66-66-88-1010-88-66-66-1010-88-6-8-10-12-13--|
A|-66-44-66-66-66-44-66-66--88--66-66-66--88--66-4-6--8-10-11--|
E|-44----44----44----44------------44-44-----------------------|

chorus: "Mandy always laughs"...
e|-----------------------------|
B|-----------------------------|
G|-------88-88-1111-1111-66-66-|
D|-66-66-88-88-1111-1111-66-66-|2x
A|-66-66-66-66--99---99--44-44-|
E|-44-44-----------------------|

Bridge "when every thing's"...
e|-----------------|
B|-----------------|
G|-----------------|
D|-66-6-66--678910-|4x
A|-66-6-66--678910-|
E|-44-4-44--4567-8-|

chorus:
"Mandy always laughs"...
e|-----------------------------|
B|-----------------------------|
G|-------88-88-1111-1111-66-66-|
D|-66-66-88-88-1111-1111-66-66-|4x (sorry don't know the very last part)
A|-66-66-66-66--99---99--44-44-|
E|-44-44-----------------------|



J-Me
J-Me
Latest page update: made by J-Me , May 21 2008, 2:08 PM EDT (about this update About This Update J-Me Edited by J-Me

24 words added
6 words deleted

view changes

- complete history)
More Info: links to this page

Anonymous  (Get credit for your thread)


There are no threads for this page.  Be the first to start a new thread.

Related Content

  (what's this?Related ContentThanks to keyword tags, links to related pages and threads are added to the bottom of your pages. Up to 15 links are shown, determined by matching tags and by how recently the content was updated; keeping the most current at the top. Share your feedback on WikiFoundry Central.)