I Wanna Be Like You TabThis is a featured page

Jonas Brothers Guitar Tabs - I Wanna Be Like You

See Also: I Wanna Be Like You Chords | Jonas Brothers Guitar Tabs

| / slide up
| \ slide down
| b bend
| p pull-off
| ~ vibrato
| + harmonic
| x Mute note


Tuning:

Intro

e|---------------------------------------------------------------------------|
B|---------------------------------------------------------------------------|
G|---------------------------------------------------------------------------|
D|---9--777------------------------------------------------------------------| X4
A|----------7b7b7b7b7b--999--------------------------------------------------|
E|-7-------------------------------------------------------------------------|

Slow Harmonic from E string fret 7 to fret 1

Verse

e|---------------------------------------------------------------------------|
B|---------------------------------------------------------------------------|
G|--9---------7--7-----9-----7-7---------------------------------------------|
D|--9---7-----7--7---9-9--7--7-7---------------------------------------------|
A|--7---7-----5--4---9-7--7--5-4---------------------------------------------|
E|------5------------7----5--------------------------------------------------|

Chorus

e|---------------------------------------------------------------------------|
B|---------------------------------------------------------------------------|
G|--7-9-------7--------------------------------------------------------------|
D|--7-9-5--7--7--------------------------------------------------------------| X 2
A|--5-7-5--7--5--------------------------------------------------------------|
E|------3--5-----------------------------------------------------------------|

I'm really woking on the solo part. But Until that This is what I have got




J-Me
J-Me
Latest page update: made by J-Me , May 21 2008, 1:58 PM EDT (about this update About This Update J-Me Edited by J-Me

16 words added
1 word deleted

view changes

- complete history)
More Info: links to this page

Anonymous  (Get credit for your thread)


There are no threads for this page.  Be the first to start a new thread.

Related Content

  (what's this?Related ContentThanks to keyword tags, links to related pages and threads are added to the bottom of your pages. Up to 15 links are shown, determined by matching tags and by how recently the content was updated; keeping the most current at the top. Share your feedback on WikiFoundry Central.)