I Am What I Am Bass TabThis is a featured page

Jonas Brothers Bass Tabs - I Am What I Am

See Also: I Am What I Am Tab | I Am What I Am Chords | I Am What I Am | Jonas Brothers Guitar Tabs

Tuning: standard

Verse

G|------------------------------------------------|
D|-----4-4----------------------------------------|
A|6-6------4-4-3-3-2222222-11111111-22222222-44444|
E|------------------------------------------------|

Chorus

G|-----------|
D|-----------|
A|22----44444|
E|---22------| x3

Pre-Verse

G|---------------------------------------|
D|---------------------------------------|
A|------------------------------6-6--4-44|
E|2/6-7-77--2/6-7-77--2/6-7-77-----------| x2

Verse x2

Chorus x2

Pre-verse x2


bridge

G|------------------------------------------------|
D|------------------------------------------------|
A|2~------2~-/6-4--2~------2~--4~--2~--2-2-2-2-2--|
E|----2~---------------2~-------------------------|

Verse x2
Chorus x3
pre-verse x4


end with

G|-------------------|
D|-------------------|
A|-------------------|
E|--2----------------|



J-Me
J-Me
Latest page update: made by J-Me , May 21 2008, 1:10 PM EDT (about this update About This Update J-Me Edited by J-Me

29 words added
1 word deleted

view changes

- complete history)
More Info: links to this page

Anonymous  (Get credit for your thread)


There are no threads for this page.  Be the first to start a new thread.

Related Content

  (what's this?Related ContentThanks to keyword tags, links to related pages and threads are added to the bottom of your pages. Up to 15 links are shown, determined by matching tags and by how recently the content was updated; keeping the most current at the top. Share your feedback on WikiFoundry Central.)