Goodnight and Goodbye Bass TabThis is a featured page

Jonas Brothers Bass Tabs - Goodnight and Goodbye

See Also: Goodnight and Goodbye Tab | Goodnight and Goodbye Chords | Jonas Brothers Guitar Tabs | Goodnight and Goodbye

Tuning: standard
Verse
G|--------------------------------------------|
D|--------------------------------------------|
A|-----------5-5--5-7-8-------5-7----------7--|
E|5-5--5-7-8-----------8-8--8-----7-7-8h10---0| x2

Chorus
"Hold on tight.."
G|---------------------------------7-9----------------------------------|
D|-------------------7-7-9-9-10-10--------------------------------------|
A|-8-8-8h108-7-7-7h8-------------------8-8-8h108-7-7-7h8-------------5-7|
E|-------------------------------------------------------5-5-7-7-8-8----|

G|--------------------------------------------------|
D|-----------------------9~-------------------------|
A|-8~-----10~--11~--12~--------7-7-7-7-7-7-7--------|
E|-----8~------------------------------------0000000|

Verse x3


Chorus
"Hold on tight.."
G|---------------------------------7-9----------------------------------|
D|-------------------7-7-9-9-10-10--------------------------------------|
A|-8-8-8h108-7-7-7h8-------------------8-8-8h108-7-7-7h8-------------5-7|
E|-------------------------------------------------------5-5-7-7-8-8----|

G|-------------------------------------------------------------------------|
D|-----------------------9~------------------------------141414141414141414|
A|-8~-----10~--11~--12~--------777777777777777-----------------------------|
E|-----8~--------------------------------------00000000--------------------|

Bridge

G|--------------------------------------------------|
D|--------------------------------------------------|
A|------------5-5--5--57-8----------5-7----------7--|
E|5-5--5--578--------------8-8--8-8-----7-7-8h10---0|

G|---------------------------------------------------------------|
D|-----------------------9~--------------------------------------|
A|-8~-----10~--11~--12~--------7-7-7-7-7-7-7-7----------7-7-7-7~-|
E|-----8~--------------------------------------0~-0-0-0----------|

Chorus

G|---------------------------------7-9----------------------------------|
D|-------------------7-7-9-9-10-10--------------------------------------|
A|-8-8-8h108-7-7-7h8-------------------8-8-8h108-7-7-7h8-------------5-7|
E|-------------------------------------------------------5-5-7-7-8-8----|

G|--------------------------------------------------|
D|-----------------------9~-------------------------|
A|-8~-----10~--11~--12~--------7-7-7-7-7-7-7--------|
E|-----8~------------------------------------0000000|

Outro

G|------------------------|-------------------------------------------------|
D|----------------------99|-----------------------9~------------------------|
A|88-----1010-1111-1212---|---8~----10~--11~--12~----7777777777777----------|
E|----88------------------|x2----8~--------------------------------0000000--|



Mrs.NicholasJ.Jonas
Mrs.NicholasJ.Jonas
Latest page update: made by Mrs.NicholasJ.Jonas , Jul 2 2009, 10:35 PM EDT (about this update About This Update Mrs.NicholasJ.Jonas Edited by Mrs.NicholasJ.Jonas

No content added or deleted.

- complete history)
More Info: links to this page

Anonymous  (Get credit for your thread)


There are no threads for this page.  Be the first to start a new thread.

Related Content

  (what's this?Related ContentThanks to keyword tags, links to related pages and threads are added to the bottom of your pages. Up to 15 links are shown, determined by matching tags and by how recently the content was updated; keeping the most current at the top. Share your feedback on WikiFoundry Central.)