Girl of My Dreams TabThis is a featured page

I am sanjay_spicyboy.

See Also: Jonas Brothers Guitar Tabs
| / slide up
| \ slide down
| h hammer-on
| p pull-off
| ~ vibrato
| x harmonic
| * Mute note


Tuning:
Standard
Intro:

Riff 1
e|---------------------|
B|---------------------|
G|---------------------|
D|---------------------|
A|-00-77-55-44-00-77-5-|
E|---------------------|

Riff 2
e|----------------------------|
B
|----------------------------|
G
|----------------------------|
D
|----------------------------| Riff 2 Repeat x2
A
|--00-77-55-44-00-77-55-44---|
E
|----------------------------|

e|--------------------------------------------------------------------------------|
B|--------------------------------------------------------------------------------|
G|----------------------------------------------------------9/--------------------|
D|--99999999999999-1212121212121212/11\1212/11\1212/11\1212-9/--------------------|
A|--99999999999999-1212121212121212/11\1212/11\1212/11\1212-7/--------------------|
E|--77777777777777-1010101010101010/-9\1010/-9\1010/-9\1010-----------------------|


Riff 3
e|-----------------------------------|
B|-----------------------------------|
G|-----------------------------------|
D|-----------------------------------|
A|-00-1212-1010-99-00-1212-1010-99---|
E|-----------------------------------|



Verse:
e|----------------------------|
B|----------------------------|
G|--------------------------9/|
*Note: Notes not played
D|--------------------------9/|
over words...
A|--00-77-55-44-00-77-55-44-7/|
E|----------------------------|
This Christmas times theres just one thing I want.

e|---------------------------|
B|---------------------------|
G|------------------------9/-|
D|99999999/8\99/8\99/8\99-9/-|
A|99999999/8\99/8\99/8\99-7/-|
E|77777777/6\77/6\77/6\77----|
It tops all, Its better than eggnog.

e|----------------------------|
B|----------------------------|
G|--------------------------9/|
D|--------------------------9/|
A|--00-77-55-44-00-77-55-44-7/|
E|----------------------------|
Its cold outside, my boots are full of snow.
e|---------------------------|
B|---------------------------|
G|------------------------9/-|
D|99999999/8\99/8\99/8\99-9/-|
A|99999999/8\99/8\99/8\99-7/-|
E|77777777/6\77/6\77/6\77----|
I'm just hoping for some mistle toe oohh.

Chorus:
e|------------------------------------------|
B|------------------------------------------|
G|--9999x9999x9999x9999x--------------------|
D|--9999x9999x9999x9999x9999x9999x9999x9999x|
A|--7777x7777x7777x7777x9999x9999x9999x9999x|
E|----------------------7777x7777x7777x7777x|

e|---------------------------------------------------------|
B|---------------------------------------------------------|
G|---------------------------------------------------------|
D|11111111x11111111x11111111x11111111x7777x7777x7777x7777x-| x2
A|11111111x11111111x11111111x11111111x7777x7777x7777x7777x-|
E|-9-9-9-9x-9-9-9-9x-9-9-9-9x-9-9-9-9x5555x5555x5555x5555x-|
You can take these presents, underneath my tree,
you can take this awsome scarf my grandma made for me.
You can take these boxes tied up with string
cause all I want for Christmas is the girl of my dreams

e|----------------------------|
B|----------------------------|
G|----------------------------|
D|----------------------------|
A|--00-77-55-44-00-77-55-44---|
E|----------------------------|

e|-----------------------------------|
B|-----------------------------------|
G|-----------------------------------|
D|-----------------------------------|
A|-00-1212-1010-99-00-1212-1010-99---|
E|-----------------------------------|

e|----------------------------|
B|----------------------------|
G|----------------------------|
D|----------------------------|
A|--00-77-55-44-00-77-55-44---|
E|----------------------------|
YEAH!
Waoh!
e|--------------------------------------------------------------------------------|
B|--------------------------------------------------------------------------------|
G|----------------------------------------------------------9/--------------------|
D|--99999999999999-1212121212121212/11\1212/11\1212/11\1212-9/--------------------|
A|--99999999999999-1212121212121212/11\1212/11\1212/11\1212-7/--------------------|
E|--77777777777777-1010101010101010/-9\1010/-9\1010/-9\1010-----------------------|
Ho! Ho! Ho! YEAH!

Verse:
e|----------------------------|
B|----------------------------|
G|--------------------------9/|
*Note: Notes not played
D|--------------------------9/|
over words...
A|--00-77-55-44-00-77-55-44-7/|
E|----------------------------|
Lights are going up its Christmas time.

e|---------------------------|
B|---------------------------|
G|------------------------9/-|
D|99999999/8\99/8\99/8\99-9/-|
A|99999999/8\99/8\99/8\99-7/-|
E|77777777/6\77/6\77/6\77----|
But I just want that girl to be mine!

e|----------------------------|
B|----------------------------|
G|--------------------------9/|
D|--------------------------9/|
A|--00-77-55-44-00-77-55-44-7/|
E|----------------------------|
My stockings full but I'm not satisfied. NO, No, NOOOOO

e|------------------------------------------------|
B|------------------------------------------------|
G|------------------------------------------------|
D|9999999999999912121212121212121212121212121414--|
A|9999999999999912121212121212121212121212121414--|
E|7777777777777710101010101010101010101010101212--|
But Ill just wait untill shes by my side.

Chorus:
e|------------------------------------------|
B|------------------------------------------|
G|--9999x9999x9999x9999x--------------------|
D|--9999x9999x9999x9999x9999x9999x9999x9999x|
A|--7777x7777x7777x7777x9999x9999x9999x9999x|
E|----------------------7777x7777x7777x7777x|

e|---------------------------------------------------------|
B|---------------------------------------------------------|
G|---------------------------------------------------------|
D|11111111x11111111x11111111x11111111x7777x7777x7777x7777x-| x2
A|11111111x11111111x11111111x11111111x7777x7777x7777x7777x-|
E|-9-9-9-9x-9-9-9-9x-9-9-9-9x-9-9-9-9x5555x5555x5555x5555x-|
You can take these presents, underneath my tree,
you can take this awsome scarf my grandma made for me.
You can take these boxes tied up with string
cause all I want for Christmas is the girl of my dreams

e|---------------------------------|
B|---------------------------------|
G|---------------------------------|
D|---------------------------------| x2 *sorry don't know the
A|--12\16-14-13-11-9-11-14-9-------| little part after this.
E|---------------------------------|
Falalalala, lalalala Faaaa la la laaa.
You can take these presents, underneath my tree,
you can take this awsome scarf my grandma made for me.

e|---------------------------------------------------------------------------|
B|---------------------------------------------------------------------------|
G|99-------------------------------------------------------------------------|
D|99-------------------99----------------11111111111111111111111111777777777-|
A|77-------------------99----------------11111111111111111111111111777777777-|
E|---------------------77-----------------9-9-9-9-9-9-9-9-9-9-9-9-9555555555-|
I would give it all just to let you see that all I want for christmas

e|---------------------------------------------------------------------------|
B|---------------------------------------------------------------------------|
G|---------------------------------------------------------------------------|
D|--777777777777777777777777-------------------------------------------------|
A|--777777777777777777777777-------------------------------------------------|
E|--555555555555555555555555-------------------------------------------------|
is the girl of my dreams

Chorus:
e|------------------------------------------|
B|------------------------------------------|
G|--9999x9999x9999x9999x--------------------|
D|--9999x9999x9999x9999x9999x9999x9999x9999x|
A|--7777x7777x7777x7777x9999x9999x9999x9999x|
E|----------------------7777x7777x7777x7777x|

e|---------------------------------------------------------|
B|---------------------------------------------------------|
G|---------------------------------------------------------|
D|11111111x11111111x11111111x11111111x7777x7777x7777x7777x-| x2
A|11111111x11111111x11111111x11111111x7777x7777x7777x7777x-|
E|-9-9-9-9x-9-9-9-9x-9-9-9-9x-9-9-9-9x5555x5555x5555x5555x-|
You can take these presents, underneath my tree,
you can take this awsome scarf my grandma made for me.
I would give it all just to let you see that
all I want for Christmas is the girl of my dreams

e|------------------------|
B|------------------------|
G|--9-8-7-6-5-4-2~~-------|
D|--9-8-7-6-5-4-2~~-------|
A|--7-6-5-4-3-2-0~~-------|
E|------------------------|

Sorry don't know ending solo either.
| / slide up
| \ slide down
| h hammer-on
| p pull-off
| ~ vibrato
| x harmonic
| * Mute note



Mrs.NicholasJ.Jonas
Mrs.NicholasJ.Jonas
Latest page update: made by Mrs.NicholasJ.Jonas , Jul 2 2009, 10:33 PM EDT (about this update About This Update Mrs.NicholasJ.Jonas Edited by Mrs.NicholasJ.Jonas

No content added or deleted.

- complete history)
More Info: links to this page

Anonymous  (Get credit for your thread)


There are no threads for this page.  Be the first to start a new thread.

Related Content

  (what's this?Related ContentThanks to keyword tags, links to related pages and threads are added to the bottom of your pages. Up to 15 links are shown, determined by matching tags and by how recently the content was updated; keeping the most current at the top. Share your feedback on WikiFoundry Central.)