Australia TabThis is a featured page

Jonas Brothers Guitar Tabs - Australia

See Also: Australia Chords | Australia Bass Tab | Australia | Jonas Brothers Guitar Tabs
Tuning: Standard
| / slide up
| \ slide down
| h hammer-on
| p pull-off
| ~ vibrato
| x harmonic

Tuning: Standard

Intro: (& Verse part 1)
e|----------------------------------------------------------------------------|
B|----------------------------------------------------------------------------|
G|-99----------55----------------------77----------99----------55-------------|
D|-99----------55----------55----------77----------99----------55----------5--| x2
A|-77----------33----------55----------55----------77----------33----------5--|
E|-------------------------33----------------------------------------------3--|
You never listen to me I know i'm better off alone

Verse: (part 2)
e|----------------------------------------------------------|
B|----------------------------------------------------------|
G|----55555555------------------55555555-----9999-----7777--|
D|----55555555-----55555555-----55555555-----9999-----7777--|
A|----33333333-----55555555-----33333333-----7777-----5555--|
E|-----------------33333333---------------------------------|
Everybody knows its true yeah we all see through you

Verse: (part 2 cont.)
e|-----------------------------------------------------------|
B|-----------------------------------------------------------|
G|-----55555555------------------55555555-----9999-----7777--|
D|-----55555555-----55555555-----55555555-----9999-----7777--|
A|-----33333333-----55555555-----33333333-----7777-----5555--|
E|------------------33333333---------------------------------|
No It wont be hard to do throw away my stuff from

Pre-Chorus:
e|---------------------------------------------------------------------------|
B|----------------------4444444444444444-------------------------------------|
G|--5555555555555555----5555555555555555-------------------------------------|
D|--5555555555555555----5555555555555555-------------------------------------|
A|--3333333333333333----3333333333333333-------------------------------------|
E|---------------------------------------------------------------------------|
you ooooh

Chours:
e|--------------------------------------------------------|
B|--------------------------------------------------------|
G|-------12-12-12-121212-12-12-12129-9-9-99---------------|
D|-------10-12-12-121212-12-12-12129-9-9-9910-10-10-1010--|
A|-------10-10-10-1010-9--9--9--9-97--7-7-7710-10-10-1010--|
E|-----------------------------------------8---8--8--8-8--|
And i'll wait for her to come she wont break


e|--------------------------------------------------------|
B|--------------------------------------------------------|
G|-------12-12-12-121212-12-12-12129-9-9-99---------------|
D|-------10-12-12-121212-12-12-12129-9-9-9910-10-10-1010--|
A|-------10-10-10-1010-9--9--9--9-97-7-7-7710-10-10-1010--|
E|-----------------------------------------8---8--8--8-8--|
heart cause I know shell be from australia


e|--------------------------------------------------------|
B|--------------------------------------------------------|
G|-------12-12-12-121212-12-12-12129-9-9-99---------------|
D|-------10-12-12-121212-12-12-12129-9-9-9910-10-10-1010--|
A|-------10-10-10-1010-9--9--9--9-97-7-7-7710-10-10-1010--|
E|-----------------------------------------8---8--8--8-8--|
she is so beautiful shes my dream girl


e|----------------------------------------------|
B|----------------------------------------------|
G|-------12-12-12-121212-12-12-12129-9-9-99-----|
D|-------10-12-12-121212-12-12-12129-9-9-9910~--|
A|-------10-10-10-1010-9--9--9--9-97-7-7-7710~--|
E|-----------------------------------------8-~--|
La La La (La La La) La La La Shes my dream girl


Intro: (& Verse part 1)
e|----------------------------------------------------------------------------|
B|----------------------------------------------------------------------------|
G|-99----------55----------------------77----------99----------55-------------|
D|-99----------55----------55----------77----------99----------55----------5--| x2
A|-77----------33----------55----------55----------77----------33----------5--|
E|-------------------------33----------------------------------------------3--|
You were the one I thought I needed I'm better off alone


Verse: (part 2)
e|----------------------------------------------------------|
B|----------------------------------------------------------|
G|----55555555------------------55555555-----9999-----7777--|
D|----55555555-----55555555-----55555555-----9999-----7777--|
A|----33333333-----55555555-----33333333-----7777-----5555--|
E|-----------------33333333---------------------------------|
Everybody knows its true they know all your secrets


Verse: (part 2 cont.)
e|-----------------------------------------------------------|
B|-----------------------------------------------------------|
G|-----55555555------------------55555555-----9999-----7777--|
D|-----55555555-----55555555-----55555555-----9999-----7777--|
A|-----33333333-----55555555-----33333333-----7777-----5555--|
E|------------------33333333---------------------------------|
The only thing you knew was true has just walked out


Pre-Chorus:
e|---------------------------------------------------------------------------|
B|----------------------4444444444444444-------------------------------------|
G|--5555555555555555----5555555555555555-------------------------------------|
D|--5555555555555555----5555555555555555-------------------------------------|
A|--3333333333333333----3333333333333333-------------------------------------|
E|---------------------------------------------------------------------------|
of your life How does it feeel


Chours:
e|--------------------------------------------------------|
B|--------------------------------------------------------|
G|-------12-12-12-121212-12-12-12129-9-9-99---------------|
D|-------10-12-12-121212-12-12-12129-9-9-9910-10-10-1010--|
A|-------10-10-10-1010-9--9--9--9-97-7-7-7710-10-10-1010--|
E|-----------------------------------------8---8--8--8-8--|
So i'll wait for her to come she wont break


e|--------------------------------------------------------|
B|--------------------------------------------------------|
G|-------12-12-12-121212-12-12-12129-9-9-99---------------|
D|-------10-12-12-121212-12-12-12129-9-9-9910-10-10-1010--|
A|-------10-10-10-1010-9--9--9--9-97-7-7-7710-10-10-1010--|
E|-----------------------------------------8---8--8--8-8--|
heart cause I know shell be from australia


e|--------------------------------------------------------|
B|--------------------------------------------------------|
G|-------12-12-12-121212-12-12-12129-9-9-99---------------|
D|-------10-12-12-121212-12-12-12129-9-9-9910-10-10-1010--|
A|-------10-10-10-1010-9--9--9--9-97-7-7-7710-10-10-1010--|
E|-----------------------------------------8---8--8--8-8--|
she is so beautiful shes my dream girl


e|----------------------------------------------|
B|----------------------------------------------|
G|-------12-12-12-121212-12-12-12129-9-9-99-----|
D|-------10-12-12-121212-12-12-12129-9-9-9910~--|
A|-------10-10-10-1010-9--9--9--9-97-7-7-7710~--|
E|-----------------------------------------8-~--|
La La La (La La La) La La La Shes my dream girl


Bridge:
e|-------------------------------------------------------------------------------|
B|-------------------------------------------------------------------------------|
G|--9/--------------------------------------7/-----------------------12~-x10~-x--|
D|--9/------------12x12/--------------------7/-----------------------12~-x10~-x--|
A|--7/------------12x12/--------------------5/-----------------------10~-x-8~-x--|
E|----------------10x10/---------------------------------------------------------|
She will be there to love and to care I know theres no need to worry


e|-------------------------------------------------------------------------------|
B|-------------------------------------------------------------------------------|
G|--9/--------------------------------------7/-------------12~10~----------------|
D|--9/------------12x12/--------------------7/-------------12~10~----------------|
A|--7/------------12x12/--------------------5/-------------10~-8~----------------|
E|----------------10x10/---------------------------------------------------------|
Girl of my dreams the one that will be there to hold me when


e|---------------------------------------------------------------------------|
B|----------------------4444444444444444-------------------------------------|
G|--5555555555555555----5555555555555555------xxx----------------------------|
D|--5555555555555555----5555555555555555------xxx----------------------------|
A|--3333333333333333----3333333333333333------xxx----------------------------|
E|---------------------------------------------------------------------------|
I'm down til shes around I'll just wait



Chorus:
For her to come
She wont break my heart
Cause I know shell be


e|---------------------------|
B|---------------------------|
G|-------121212121212121212--|
D|-------101212121212121212--|
A|-------1010101010-9-9-9-9--|
E|---------------------------|
From australia


e|-----------------------------------------------------------------|
B|-----------------------------------------------------------------|
G|-------1212121212121212121212121212121299999999------------------|
D|-------10121212121212121212121212121212999999991010101010101010--|
A|-------1010101010101010-9-9-9-9-9-9-9-9777777771010101010101010--|
E|------------------------------------------------8-8-8-8-8-8-8-8--|
She is so beautiful shes my dream girl


e|-----------------------------------------------------------------|
B|-----------------------------------------------------------------|
G|-------1212121212121212121212121212121299999999------------------|
D|-------10121212121212121212121212121212999999991010101010101010--|
A|-------1010101010101010-9-9-9-9-9-9-9-9777777771010101010101010--|
E|------------------------------------------------8-8-8-8-8-8-8-8--|
La La La ( La La La) LA LA LA Shes my dream gi-


e|-----------------------------------------------------------------|
B|-----------------------------------------------------------------|
G|-------1212121212121212121212121212121299999999------------------|
D|-------10121212121212121212121212121212999999991010101010101010--| x2
A|-------1010101010101010-9-9-9-9-9-9-9-9777777771010101010101010--|
E|------------------------------------------------8-8-8-8-8-8-8-8--|
-rl Ooooh Yeah


e|-----------------------------------------------------------------|
B|-----------------------------------------------------------------|
G|-------1212121212121212121212121212121299999999------------------|
D|-------10121212121212121212121212121212999999991010101010101010--|
A|-------1010101010101010-9-9-9-9-9-9-9-9777777771010101010101010--|
E|------------------------------------------------8-8-8-8-8-8-8-8--|
So I'll wait For her to come she wont break my heart
(So I'll wait) (For her) (To come)

e|-----------------------------------------------------------------|
B|-----------------------------------------------------------------|
G|-------1212121212121212121212121212121299999999------------------|
D|-------10121212121212121212121212121212999999991010101010101010--|
A|-------1010101010101010-9-9-9-9-9-9-9-9777777771010101010101010--|
E|------------------------------------------------8-8-8-8-8-8-8-8--|
Cause I Know shell be from australia
(She wont break my heart cause I know shell be from australia)


e|-----------------------------------------------------------------|
B|-----------------------------------------------------------------|
G|-------1212121212121212121212121212121299999999------------------|
D|-------10121212121212121212121212121212999999991010101010101010--|
A|-------1010101010101010-9-9-9-9-9-9-9-9777777771010101010101010--|
E|------------------------------------------------8-8-8-8-8-8-8-8--|
She is so beautiful Shes my dream girl
(She is so beautiful) (Shes my dream girl)

e|------------------------------------------------------------------|
B|------------------------------------------------------------------|
G|-------1212121212121212121212121212121299999999-------------------|
D|-------1012121212121212121212121212121299999999-10~~------/-------|
A|-------1010101010101010-9-9-9-9-9-9-9-977777777-10~~------/-------|
E|-------------------------------------------------8~~------/-------|
La La La (La La La) La La La Shes my -
(La La La)


e|-----------|
B|-----------|
G|-----------|
D|--/5~~~----|
A|--/5~~~----|
E|--/3~~~----|
Dream Girl
dream girl.


Mrs.NicholasJ.Jonas
Mrs.NicholasJ.Jonas
Latest page update: made by Mrs.NicholasJ.Jonas , Jul 2 2009, 1:13 PM EDT (about this update About This Update Mrs.NicholasJ.Jonas Edited by Mrs.NicholasJ.Jonas

No content added or deleted.

- complete history)
More Info: links to this page

Anonymous  (Get credit for your thread)


There are no threads for this page.  Be the first to start a new thread.

Related Content

  (what's this?Related ContentThanks to keyword tags, links to related pages and threads are added to the bottom of your pages. Up to 15 links are shown, determined by matching tags and by how recently the content was updated; keeping the most current at the top. Share your feedback on WikiFoundry Central.)