6 Minutes Guitar TabsThis is a featured page

Jonas Brothers Guitar Tabs - 6 Minutes

See Also: 6 Minutes Chords | 6 Minutes Bass Tab | 6 Minutes | Jonas Brothers Guitar Tabs
Verse 1:
e|------------------------------------------------------------------------| B|------------------------------------------------------------------------| G|---------------7--------9------5----------------------------------------| D|---5-----------7--------9------5----------------x2----------------------| A|---5-----------5--------7------3----------------------------------------| E|---3--------------------------------------------------------------------|

chorus:
e|------------------------------------------------------------------------|
B|------------------------------------------------------------------------|
G|---------------7--------9------5----------------------------------------|
D|---5-----------7--------9------5----------------x2----------------------|
A|---5-----------5--------7------3----------------------------------------|
E|---3--------------------------------------------------------------------|

Verse Two:
e|------------------------------------------------------------------------|
B|------------------------------------------------------------------------|
G|---------------7--------9------5----------------------------------------|
D|---5-----------7--------9------5----------------x2----------------------|
A|---5-----------5--------7------3----------------------------------------|
E|---3--------------------------------------------------------------------|

chorus:
e|------------------------------------------------------------------------|
B|------------------------------------------------------------------------|
G|---------------7--------9------5----------------------------------------|
D|---5-----------7--------9------5----------------x2----------------------|
A|---5-----------5--------7------3----------------------------------------|
E|---3--------------------------------------------------------------------|

Bridge:
e|------------------------------------------------------------------------|
B|------------------------------------------------------------------------|
G|----------7--------9----5------------7-----5----------------------------|
D|---5------7--------9----5-----5------7-----5----------------------------|
A|---5------5--------7----3-----5------5-----3----------------------------|
E|---3--------------------------3-----------------------------------------|

e|------------------------------------------------------------------------|
B|------------------------------------------------------------------------|
G|-5-----9-----5----------------------------------------------------------|
D|-5-----9-----5----------------------------------------------------------|
A|-3-----7-----3----------------------------------------------------------|
E|------------------------------------------------------------------------|

e|------------------------------------------------------------------------|
B|------------------------------------------------------------------------|
G|----------------7--------------------5----------------------------------|
D|-5--------------7--------------------5----------------------------------|
A|-5--------------5--------------------3----------------------------------|
E|-3----------------------------------------------------------------------|

chorus:
e|------------------------------------------------------------------------|
B|------------------------------------------------------------------------|
G|---------------7--------9------5----------------------------------------|
D|---5-----------7--------9------5----------------x2----------------------|
A|---5-----------5--------7------3----------------------------------------|
E|---3--------------------------------------------------------------------|


Mrs.NicholasJ.Jonas
Mrs.NicholasJ.Jonas
Latest page update: made by Mrs.NicholasJ.Jonas , Jul 2 2009, 1:08 PM EDT (about this update About This Update Mrs.NicholasJ.Jonas Edited by Mrs.NicholasJ.Jonas

No content added or deleted.

- complete history)
More Info: links to this page

Anonymous  (Get credit for your thread)


There are no threads for this page.  Be the first to start a new thread.

Related Content

  (what's this?Related ContentThanks to keyword tags, links to related pages and threads are added to the bottom of your pages. Up to 15 links are shown, determined by matching tags and by how recently the content was updated; keeping the most current at the top. Share your feedback on WikiFoundry Central.)